ประยุกต์ใช้ โพสล่าสุด เครื่องมือ สถิติฟอรั่ม
หัวข้อ : คอร์ดเพลง ลม  so cool
mymusic ออฟไลน์
ระดับ: ผู้ใช้ระดับ I
รายละเอียดผู้ใช้ 

คอร์ดเพลง ลม  so cool

   

ลม- so cool

Intro : Asus2/C#m7/Bm7/E

  Asus2     C#m7         F#m
ก็ไม่รู้ว่าลมอะไรพัดเรามาพบกัน
    Bm7          E               Asus2
และไม่รู้ว่าลมอะไรพัดเธอไปจากฉัน
   F#m      C#m7     D             C#m7
อยู่ดีๆก็ทำให้ฉันรักเธอ  ทำให้มีความฝัน
      Bm7           B                   E
แต่ไม่นานก็ทำลายฉันจนแทบไม่เหลือใจ
  
  Asus2             C#m7            F#m
และบางครั้งในยามค่ำคืนแม้กายจะล้มไป
        Bm7               E               Asus2
อยากให้รู้เรื่องราวของเธอไม่เคยจะหลับไหล
         F#m             C#m7    D             C#m7          
หลับตาลงแต่ใจยังคิดถึงเธอ  อยากจะเจอเพียงไหน
Bm7          E         Asus2  F#
ก็ไม่มีทางทำอะไรได้เลย...

             Bm7   E      C#m7      F#m
** จะมีทางไหมที่ลมจะพาเธอย้อนคืนมา
           Bm7               E                     Asus2
ไม่ปล่อยให้ฉันต้องเสียน้ำตามากมายกับความหลัง
            F#m             C#m7
อยากบอกเธอว่าคนคนนี้ยังคอย
D             C#m7   Bm7     E         Asus2
รออย่างมีความหวัง  รอให้ลมนั้นพัดเรามาคู่กัน

Solo : Asus2/G#m/F#m/Bm7/E/Asus2
          F#m/C#m7/D/C#m7/Bm7/E/Asus2/F#
        
               Bm7   E      C#m7      F#m
** จะมีทางไหมที่ลมจะพาเธอย้อนคืนมา
           Bm7               E                     Asus2
ไม่ปล่อยให้ฉันต้องเสียน้ำตามากมายกับความหลัง
            F#m             C#m7
อยากบอกเธอว่าคนคนนี้ยังคอย
D             C#m7  Bm7            E         Asus2
รออย่างมีความหวัง  รอแต่เธอเท่านั้นให้เธอเข้าใจ

Asus2     C#m7         F#m
ก็ไม่รู้ว่าลมอะไรพัดเรามาพบกัน
    Bm7          E               Asus2
ก็ฉันไม่รู้ว่าลมอะไรพัดเธอไปจากฉัน
   F#m      C#m7     D             C#m7
อยู่ดีๆก็ทำให้ฉันรักเธอ  ทำให้มีความฝัน
      Bm7            E       Asus2  F#
แต่ไม่นานก็ทำลายกันไม่เหลือใจ
                                   Bm7           E        Asus2
                             แต่ว่าฉันยังคิดถึงเธออยู่ร่ำไป...
My Music
mymusic ออฟไลน์
ระดับ: ผู้ใช้ระดับ I
รายละเอียดผู้ใช้ 
   
ท่อน solo หากมีตรงไหนผิดพลาดหรือตรงส่วนไหนขาดหายไป ให้เพื่อนๆช่วยกันปรับปรุงแก้ไขเลยนะครับ จะได้มีเพลง + tab ดีๆไว้เล่นกันครับ

*** ผมจะใช้เครื่องหมาย / แทนการแบ่งห้องหรือจังหวะในการเล่นนะครับ ฝึกเล่นไปทีละ / นะครับ และ tab ผมเรียงสายแบบ 6 ไป 1 นะครับ อาจงงนิดหน่อยแต่ให้ดูตัวเลขกำกับสายที่ด้านซ้ายก็แล้วกันนะครับ ***


6) ------5(สั่นสาย)---------------------/-------------------------------------------/--
5) ------------0------2------2/4-------/----4------4-------------------------------/--
4) --------------------------------------/--------2-------2/4-----------------------/--
3) --------------------------------------/------------------------2-----2(สั่นสาย)--/--
2) --------------------------------------/--------------------------------------------/--
1) --------------------------------------/--------------------------------------------/--


6) -----------------------------------------------/--------------------------------------/
5) -----------------------------------------------/--------------------------------------/
4) ---4------------------------------------------/---------------------------------------/
3) ------2----4----4^^^------2h4(สั่นสาย)-/---2--4--2--4/6---------6-----------/
2) ----------------------------------------------/--------------------5--5-----5/7--5--/
1) ----------------------------------------------/----------------------------------------/



6) --------------------------------------------------------------------------------------
5) --------------------------------------------------------------------------------------
4) --------------------------------------------------------------------------------------
3) --6------------------------------------------------------------------------------------
2) -----5/7---7/9---9/10---10--12---12^(ดันค้างไว้)----12(ดันที่ค้างไว้ลง)--10(สั่นสาย)---
1) ----------------------------------------------12---12---12---------------------------



6) --/------------------------------------------------------------------------------/----
5) --/------------------------------------------------------------------------------/----
4) --/------------------------------------------------------------------------------/----
3) --/------------------------------------------------------------------------------/----
2) --/--12^/10---12^(ดันค้างไว้)-----12(ดันที่ค้างไว้ลง)---10(สั่นสาย)-----/----
1) --/--------------------12---12---12-------------------------------------------/----



6) ----------------------------------/-----------------------------------/---------------
5) ----------------------------------/-----------------------------------/---------------
4) ----------------------------------/-----------------------------------/---------------
3) ---11^---9----9/11(สั่นสาย)--/---11-----------------------------/---------------
2) ----------------------------------/--------10---10/12(สั่นสาย)----/---------------
1) ----------------------------------/-----------------------------------/---------------



6) ----------------------------------/---------------------------------------------------
5) ----------------------------------/---------------------------------------------------
4) ----------------------------------/---------------------------------------------------
3) ----------------------------------/---------------------------------------------------
2) --12^/7------7/10(สั่นสาย)---/---10---10--11---12---14-----14/15(สั่นสาย)
1) ----------------------------------/---------------------------------------------------



ลักษณะการพิมพ์อาจดูบ้านๆไปหน่อยนะครับ พอดีครั้งแรกที่ได้ฟังท่อน SOLO เพลงนี้ แล้วรู้สึกว่าชอบขึ้นมาทันทีครับ ผิดถูกตรงไหนยังไงก็ช่วยๆกันแก้ไขปรับปรุงต่อไปนะครับ
My Music
ล่าสุดในทุกฟอรั่ม
ล่าสุดในฟอรั่มเดียวกัน
โพสใหม่ในฟอรั่มเดียวกัน
 เว็บบอร์ดการศึกษา เรียนพิเศษ วิดีโอ ติวเข้ม ข้อสอบ แนวข้อสอบ คลังข้อสอบ สื่อการสอน » เนื้อเพลงคอร์ดกีตาร์
รายละเอียดไฟล์แนบ
กล่องตอบกลับด่วน

สามารถอัพโหลดไฟล์แนบ สำหรับโพสได้
กด "Ctrl+Enter" เพื่อตั้งกระทู้ได้